ISO-10303-21;
HEADER;
FILE_DESCRIPTION (( 'STEP AP214' ),
    '1' );
FILE_NAME ('test cote moi.STEP',
    '2012-04-02T20:04:23',
    ( 'cf' ),
    ( 'cf' ),
    'SwSTEP 2.0',
    'SolidWorks 2001108',
    '' );
FILE_SCHEMA (( 'AUTOMOTIVE_DESIGN' ));
ENDSEC;

DATA;
#1 = EDGE_CURVE ( 'NONE', #11, #35, #82, .T. ) ;
#2 = ADVANCED_FACE ( 'NONE', ( #90 ), #93, .T. ) ;
#3 = ADVANCED_FACE ( 'NONE', ( #103 ), #104, .T. ) ;
#4 = ORIENTED_EDGE ( 'NONE', *, *, #159, .T. ) ;
#5 = EDGE_LOOP ( 'NONE', ( #266, #53, #375, #91 ) ) ;
#6 = EDGE_CURVE ( 'NONE', #27, #180, #145, .T. ) ;
#7 = VERTEX_POINT ( 'NONE', #149 ) ;
#8 = EDGE_CURVE ( 'NONE', #7, #35, #150, .T. ) ;
#9 = EDGE_LOOP ( 'NONE', ( #39, #19, #56, #14 ) ) ;
#10 = EDGE_CURVE ( 'NONE', #35, #267, #154, .T. ) ;
#11 = VERTEX_POINT ( 'NONE', #158 ) ;
#12 = EDGE_CURVE ( 'NONE', #48, #373, #163, .T. ) ;
#13 = ORIENTED_EDGE ( 'NONE', *, *, #47, .T. ) ;
#14 = ORIENTED_EDGE ( 'NONE', *, *, #37, .T. ) ;
#15 = EDGE_CURVE ( 'NONE', #57, #372, #167, .T. ) ;
#16 = EDGE_LOOP ( 'NONE', ( #374, #55, #22, #197 ) ) ;
#17 = ADVANCED_FACE ( 'NONE', ( #176 ), #177, .T. ) ;
#18 = EDGE_LOOP ( 'NONE', ( #38, #215, #45, #268, #24, #68, #377, #46 ) ) ;
#19 = ORIENTED_EDGE ( 'NONE', *, *, #47, .F. ) ;
#20 = ORIENTED_EDGE ( 'NONE', *, *, #44, .F. ) ;
#21 = ORIENTED_EDGE ( 'NONE', *, *, #42, .T. ) ;
#22 = ORIENTED_EDGE ( 'NONE', *, *, #52, .T. ) ;
#23 = ORIENTED_EDGE ( 'NONE', *, *, #44, .T. ) ;
#24 = ORIENTED_EDGE ( 'NONE', *, *, #15, .F. ) ;
#25 = ADVANCED_FACE ( 'NONE', ( #203 ), #204, .T. ) ;
#26 = ORIENTED_EDGE ( 'NONE', *, *, #369, .T. ) ;
#27 = VERTEX_POINT ( 'NONE', #216 ) ;
#28 = ADVANCED_FACE ( 'NONE', ( #217 ), #218, .T. ) ;
#29 = EDGE_CURVE ( 'NONE', #48, #180, #223, .T. ) ;
#30 = ORIENTED_EDGE ( 'NONE', *, *, #37, .F. ) ;
#31 = ORIENTED_EDGE ( 'NONE', *, *, #10, .T. ) ;
#32 = EDGE_CURVE ( 'NONE', #371, #11, #231, .T. ) ;
#33 = EDGE_LOOP ( 'NONE', ( #26, #75, #31, #66, #4, #43, #265, #23 ) ) ;
#34 = ORIENTED_EDGE ( 'NONE', *, *, #54, .T. ) ;
#35 = VERTEX_POINT ( 'NONE', #242 ) ;
#36 = ORIENTED_EDGE ( 'NONE', *, *, #64, .F. ) ;
#37 = EDGE_CURVE ( 'NONE', #57, #368, #243, .T. ) ;
#38 = ORIENTED_EDGE ( 'NONE', *, *, #54, .F. ) ;
#39 = ORIENTED_EDGE ( 'NONE', *, *, #70, .F. ) ;
#40 = ORIENTED_EDGE ( 'NONE', *, *, #282, .T. ) ;
#41 = VERTEX_POINT ( 'NONE', #76 ) ;
#42 = EDGE_CURVE ( 'NONE', #373, #51, #77, .T. ) ;
#43 = ORIENTED_EDGE ( 'NONE', *, *, #6, .T. ) ;
#44 = EDGE_CURVE ( 'NONE', #62, #41, #86, .T. ) ;
#45 = ORIENTED_EDGE ( 'NONE', *, *, #12, .F. ) ;
#46 = ORIENTED_EDGE ( 'NONE', *, *, #32, .F. ) ;
#47 = EDGE_CURVE ( 'NONE', #71, #267, #109, .T. ) ;
#48 = VERTEX_POINT ( 'NONE', #113 ) ;
#49 = ORIENTED_EDGE ( 'NONE', *, *, #159, .F. ) ;
#50 = ORIENTED_EDGE ( 'NONE', *, *, #162, .T. ) ;
#51 = VERTEX_POINT ( 'NONE', #115 ) ;
#52 = EDGE_CURVE ( 'NONE', #372, #48, #116, .T. ) ;
#53 = ORIENTED_EDGE ( 'NONE', *, *, #334, .F. ) ;
#54 = EDGE_CURVE ( 'NONE', #51, #371, #121, .T. ) ;
#55 = ORIENTED_EDGE ( 'NONE', *, *, #214, .F. ) ;
#56 = ORIENTED_EDGE ( 'NONE', *, *, #179, .T. ) ;
#57 = VERTEX_POINT ( 'NONE', #127 ) ;
#58 = ADVANCED_FACE ( 'NONE', ( #128 ), #129, .T. ) ;
#59 = ORIENTED_EDGE ( 'NONE', *, *, #369, .F. ) ;
#60 = ADVANCED_FACE ( 'NONE', ( #134 ), #135, .T. ) ;
#61 = ORIENTED_EDGE ( 'NONE', *, *, #214, .T. ) ;
#62 = VERTEX_POINT ( 'NONE', #140 ) ;
#63 = EDGE_LOOP ( 'NONE', ( #49, #30, #335, #61 ) ) ;
#64 = EDGE_CURVE ( 'NONE', #180, #62, #141, .T. ) ;
#65 = ORIENTED_EDGE ( 'NONE', *, *, #160, .F. ) ;
#66 = ORIENTED_EDGE ( 'NONE', *, *, #70, .T. ) ;
#67 = EDGE_LOOP ( 'NONE', ( #59, #65, #34, #92 ) ) ;
#68 = ORIENTED_EDGE ( 'NONE', *, *, #179, .F. ) ;
#69 = ORIENTED_EDGE ( 'NONE', *, *, #282, .F. ) ;
#70 = EDGE_CURVE ( 'NONE', #267, #368, #171, .T. ) ;
#71 = VERTEX_POINT ( 'NONE', #175 ) ;
#72 = ORIENTED_EDGE ( 'NONE', *, *, #1, .F. ) ;
#73 = ORIENTED_EDGE ( 'NONE', *, *, #160, .T. ) ;
#74 = ADVANCED_FACE ( 'NONE', ( #184 ), #185, .T. ) ;
#75 = ORIENTED_EDGE ( 'NONE', *, *, #8, .T. ) ;
#76 = CARTESIAN_POINT ( 'NONE',  ( 1.599999999999999900, -7.434558087612353700E-016, 0.0000000000000000000 ) ) ;
#77 = LINE ( 'NONE', #78, #79 ) ;
#78 = CARTESIAN_POINT ( 'NONE',  ( 1.599999999999999900, -13.61814050874826000, -200.0000000000000000 ) ) ;
#79 = VECTOR ( 'NONE', #80, 1000.000000000000000 ) ;
#80 = DIRECTION ( 'NONE',  ( 0.0000000000000000000, 1.000000000000000000, 0.0000000000000000000 ) ) ;
#81 = CARTESIAN_POINT ( 'NONE',  ( 510.7000000000000500, 19.99625694955441100, 0.0000000000000000000 ) ) ;
#82 = LINE ( 'NONE', #83, #84 ) ;
#83 = CARTESIAN_POINT ( 'NONE',  ( 0.0000000000000000000, -19.65149389870002800, -200.0000000000000000 ) ) ;
#84 = VECTOR ( 'NONE', #85, 1000.000000000000000 ) ;
#85 = DIRECTION ( 'NONE',  ( 0.0000000000000000000, 0.0000000000000000000, 1.000000000000000000 ) ) ;
#86 = LINE ( 'NONE', #87, #88 ) ;
#87 = CARTESIAN_POINT ( 'NONE',  ( 1.599999999999999900, -13.61814050874826000, 0.0000000000000000000 ) ) ;
#88 = VECTOR ( 'NONE', #89, 1000.000000000000000 ) ;
#89 = DIRECTION ( 'NONE',  ( 0.0000000000000000000, 1.000000000000000000, 0.0000000000000000000 ) ) ;
#90 = FACE_OUTER_BOUND ( 'NONE', #126, .T. ) ;
#91 = ORIENTED_EDGE ( 'NONE', *, *, #1, .T. ) ;
#92 = ORIENTED_EDGE ( 'NONE', *, *, #334, .T. ) ;
#93 = PLANE ( 'NONE',  #94 ) ;
#94 = AXIS2_PLACEMENT_3D ( 'NONE', #95, #96, #97 ) ;
#95 = CARTESIAN_POINT ( 'NONE',  ( 509.1000000000000200, -13.61814050874819800, -200.0000000000000000 ) ) ;
#96 = DIRECTION ( 'NONE',  ( -1.230542761284040600E-016, 1.000000000000000000, 0.0000000000000000000 ) ) ;
#97 = DIRECTION ( 'NONE',  ( -1.000000000000000000, -1.230542761284040600E-016, 0.0000000000000000000 ) ) ;
#98 = LINE ( 'NONE', #99, #100 ) ;
#99 = CARTESIAN_POINT ( 'NONE',  ( 1.599999999999999900, -7.434558087612353700E-016, 0.0000000000000000000 ) ) ;
#100 = VECTOR ( 'NONE', #101, 1000.000000000000000 ) ;
#101 = DIRECTION ( 'NONE',  ( -1.000000000000000000, 4.646598804757721300E-016, 0.0000000000000000000 ) ) ;
#102 = CARTESIAN_POINT ( 'NONE',  ( 0.0000000000000000000, 0.0000000000000000000, -200.0000000000000000 ) ) ;
#103 = FACE_OUTER_BOUND ( 'NONE', #370, .T. ) ;
#104 = PLANE ( 'NONE',  #105 ) ;
#105 = AXIS2_PLACEMENT_3D ( 'NONE', #106, #107, #108 ) ;
#106 = CARTESIAN_POINT ( 'NONE',  ( 1.599999999999999900, -13.61814050874826000, -200.0000000000000000 ) ) ;
#107 = DIRECTION ( 'NONE',  ( 1.000000000000000000, 0.0000000000000000000, 0.0000000000000000000 ) ) ;
#108 = DIRECTION ( 'NONE',  ( 0.0000000000000000000, 0.0000000000000000000, -1.000000000000000000 ) ) ;
#109 = LINE ( 'NONE', #110, #111 ) ;
#110 = CARTESIAN_POINT ( 'NONE',  ( 510.7000000000000500, -19.65149389870002800, -200.0000000000000000 ) ) ;
#111 = VECTOR ( 'NONE', #112, 1000.000000000000000 ) ;
#112 = DIRECTION ( 'NONE',  ( 0.0000000000000000000, 0.0000000000000000000, 1.000000000000000000 ) ) ;
#113 = CARTESIAN_POINT ( 'NONE',  ( 509.1000000000000200, -13.61814050874819800, -200.0000000000000000 ) ) ;
#114 = CARTESIAN_POINT ( 'NONE',  ( 509.1000000000000200, 19.99625694955440700, -200.0000000000000000 ) ) ;
#115 = CARTESIAN_POINT ( 'NONE',  ( 1.599999999999999900, -7.434558087612353700E-016, -200.0000000000000000 ) ) ;
#116 = LINE ( 'NONE', #117, #118 ) ;
#117 = CARTESIAN_POINT ( 'NONE',  ( 509.1000000000000200, 19.99625694955440700, -200.0000000000000000 ) ) ;
#118 = VECTOR ( 'NONE', #119, 1000.000000000000000 ) ;
#119 = DIRECTION ( 'NONE',  ( 0.0000000000000000000, -1.000000000000000000, 0.0000000000000000000 ) ) ;
#120 = CARTESIAN_POINT ( 'NONE',  ( 1.599999999999999900, -13.61814050874826000, -200.0000000000000000 ) ) ;
#121 = LINE ( 'NONE', #122, #123 ) ;
#122 = CARTESIAN_POINT ( 'NONE',  ( 1.599999999999999900, -7.434558087612353700E-016, -200.0000000000000000 ) ) ;
#123 = VECTOR ( 'NONE', #124, 1000.000000000000000 ) ;
#124 = DIRECTION ( 'NONE',  ( -1.000000000000000000, 4.646598804757721300E-016, 0.0000000000000000000 ) ) ;
#125 = CLOSED_SHELL ( 'NONE', ( #74, #333, #60, #232, #28, #58, #2, #17, #3, #25 ) ) ;
#126 = EDGE_LOOP ( 'NONE', ( #36, #376, #283, #40 ) ) ;
#127 = CARTESIAN_POINT ( 'NONE',  ( 510.7000000000000500, 19.99625694955441100, -200.0000000000000000 ) ) ;
#128 = FACE_OUTER_BOUND ( 'NONE', #16, .T. ) ;
#129 = PLANE ( 'NONE',  #130 ) ;
#130 = AXIS2_PLACEMENT_3D ( 'NONE', #131, #132, #133 ) ;
#131 = CARTESIAN_POINT ( 'NONE',  ( 509.1000000000000200, 19.99625694955440700, -200.0000000000000000 ) ) ;
#132 = DIRECTION ( 'NONE',  ( -1.000000000000000000, 0.0000000000000000000, 0.0000000000000000000 ) ) ;
#133 = DIRECTION ( 'NONE',  ( 0.0000000000000000000, 0.0000000000000000000, 1.000000000000000000 ) ) ;
#134 = FACE_OUTER_BOUND ( 'NONE', #33, .T. ) ;
#135 = PLANE ( 'NONE',  #136 ) ;
#136 = AXIS2_PLACEMENT_3D ( 'NONE', #137, #138, #139 ) ;
#137 = CARTESIAN_POINT ( 'NONE',  ( 0.0000000000000000000, 0.0000000000000000000, 0.0000000000000000000 ) ) ;
#138 = DIRECTION ( 'NONE',  ( 0.0000000000000000000, 0.0000000000000000000, 1.000000000000000000 ) ) ;
#139 = DIRECTION ( 'NONE',  ( 1.000000000000000000, 0.0000000000000000000, 0.0000000000000000000 ) ) ;
#140 = CARTESIAN_POINT ( 'NONE',  ( 1.599999999999999900, -13.61814050874826000, 0.0000000000000000000 ) ) ;
#141 = LINE ( 'NONE', #142, #143 ) ;
#142 = CARTESIAN_POINT ( 'NONE',  ( 509.1000000000000200, -13.61814050874819800, 0.0000000000000000000 ) ) ;
#143 = VECTOR ( 'NONE', #144, 1000.000000000000000 ) ;
#144 = DIRECTION ( 'NONE',  ( -1.000000000000000000, -1.230542761284040600E-016, 0.0000000000000000000 ) ) ;
#145 = LINE ( 'NONE', #146, #147 ) ;
#146 = CARTESIAN_POINT ( 'NONE',  ( 509.1000000000000200, 19.99625694955440700, 0.0000000000000000000 ) ) ;
#147 = VECTOR ( 'NONE', #148, 1000.000000000000000 ) ;
#148 = DIRECTION ( 'NONE',  ( 0.0000000000000000000, -1.000000000000000000, 0.0000000000000000000 ) ) ;
#149 = CARTESIAN_POINT ( 'NONE',  ( 0.0000000000000000000, 0.0000000000000000000, 0.0000000000000000000 ) ) ;
#150 = LINE ( 'NONE', #151, #152 ) ;
#151 = CARTESIAN_POINT ( 'NONE',  ( 0.0000000000000000000, 0.0000000000000000000, 0.0000000000000000000 ) ) ;
#152 = VECTOR ( 'NONE', #153, 1000.000000000000000 ) ;
#153 = DIRECTION ( 'NONE',  ( 0.0000000000000000000, -1.000000000000000000, 0.0000000000000000000 ) ) ;
#154 = LINE ( 'NONE', #155, #156 ) ;
#155 = CARTESIAN_POINT ( 'NONE',  ( 0.0000000000000000000, -19.65149389870002800, 0.0000000000000000000 ) ) ;
#156 = VECTOR ( 'NONE', #157, 1000.000000000000000 ) ;
#157 = DIRECTION ( 'NONE',  ( 1.000000000000000000, 0.0000000000000000000, 0.0000000000000000000 ) ) ;
#158 = CARTESIAN_POINT ( 'NONE',  ( 0.0000000000000000000, -19.65149389870002800, -200.0000000000000000 ) ) ;
#159 = EDGE_CURVE ( 'NONE', #368, #27, #190, .T. ) ;
#160 = EDGE_CURVE ( 'NONE', #51, #41, #194, .T. ) ;
#161 = EDGE_LOOP ( 'NONE', ( #281, #72, #50, #13 ) ) ;
#162 = EDGE_CURVE ( 'NONE', #11, #71, #199, .T. ) ;
#163 = LINE ( 'NONE', #164, #165 ) ;
#164 = CARTESIAN_POINT ( 'NONE',  ( 509.1000000000000200, -13.61814050874819800, -200.0000000000000000 ) ) ;
#165 = VECTOR ( 'NONE', #166, 1000.000000000000000 ) ;
#166 = DIRECTION ( 'NONE',  ( -1.000000000000000000, -1.230542761284040600E-016, 0.0000000000000000000 ) ) ;
#167 = LINE ( 'NONE', #168, #169 ) ;
#168 = CARTESIAN_POINT ( 'NONE',  ( 510.7000000000000500, 19.99625694955441100, -200.0000000000000000 ) ) ;
#169 = VECTOR ( 'NONE', #170, 1000.000000000000000 ) ;
#170 = DIRECTION ( 'NONE',  ( -1.000000000000000000, -2.168404344970946900E-015, 0.0000000000000000000 ) ) ;
#171 = LINE ( 'NONE', #172, #173 ) ;
#172 = CARTESIAN_POINT ( 'NONE',  ( 510.7000000000000500, -19.65149389870002800, 0.0000000000000000000 ) ) ;
#173 = VECTOR ( 'NONE', #174, 1000.000000000000000 ) ;
#174 = DIRECTION ( 'NONE',  ( 0.0000000000000000000, 1.000000000000000000, 0.0000000000000000000 ) ) ;
#175 = CARTESIAN_POINT ( 'NONE',  ( 510.7000000000000500, -19.65149389870002800, -200.0000000000000000 ) ) ;
#176 = FACE_OUTER_BOUND ( 'NONE', #67, .T. ) ;
#177 = PLANE ( 'NONE',  #178 ) ;
#178 = AXIS2_PLACEMENT_3D ( 'NONE', #181, #182, #183 ) ;
#179 = EDGE_CURVE ( 'NONE', #71, #57, #209, .T. ) ;
#180 = VERTEX_POINT ( 'NONE', #213 ) ;
#181 = CARTESIAN_POINT ( 'NONE',  ( 1.599999999999999900, -7.434558087612353700E-016, -200.0000000000000000 ) ) ;
#182 = DIRECTION ( 'NONE',  ( 4.646598804757721300E-016, 1.000000000000000000, 0.0000000000000000000 ) ) ;
#183 = DIRECTION ( 'NONE',  ( -1.000000000000000000, 4.646598804757721300E-016, 0.0000000000000000000 ) ) ;
#184 = FACE_OUTER_BOUND ( 'NONE', #9, .T. ) ;
#185 = PLANE ( 'NONE',  #186 ) ;
#186 = AXIS2_PLACEMENT_3D ( 'NONE', #187, #188, #189 ) ;
#187 = CARTESIAN_POINT ( 'NONE',  ( 510.7000000000000500, -19.65149389870002800, -200.0000000000000000 ) ) ;
#188 = DIRECTION ( 'NONE',  ( 1.000000000000000000, 0.0000000000000000000, 0.0000000000000000000 ) ) ;
#189 = DIRECTION ( 'NONE',  ( 0.0000000000000000000, 0.0000000000000000000, -1.000000000000000000 ) ) ;
#190 = LINE ( 'NONE', #191, #192 ) ;
#191 = CARTESIAN_POINT ( 'NONE',  ( 510.7000000000000500, 19.99625694955441100, 0.0000000000000000000 ) ) ;
#192 = VECTOR ( 'NONE', #193, 1000.000000000000000 ) ;
#193 = DIRECTION ( 'NONE',  ( -1.000000000000000000, -2.168404344970946900E-015, 0.0000000000000000000 ) ) ;
#194 = LINE ( 'NONE', #195, #196 ) ;
#195 = CARTESIAN_POINT ( 'NONE',  ( 1.599999999999999900, -7.434558087612353700E-016, -200.0000000000000000 ) ) ;
#196 = VECTOR ( 'NONE', #198, 1000.000000000000000 ) ;
#197 = ORIENTED_EDGE ( 'NONE', *, *, #29, .T. ) ;
#198 = DIRECTION ( 'NONE',  ( 0.0000000000000000000, 0.0000000000000000000, 1.000000000000000000 ) ) ;
#199 = LINE ( 'NONE', #200, #201 ) ;
#200 = CARTESIAN_POINT ( 'NONE',  ( 0.0000000000000000000, -19.65149389870002800, -200.0000000000000000 ) ) ;
#201 = VECTOR ( 'NONE', #202, 1000.000000000000000 ) ;
#202 = DIRECTION ( 'NONE',  ( 1.000000000000000000, 0.0000000000000000000, 0.0000000000000000000 ) ) ;
#203 = FACE_OUTER_BOUND ( 'NONE', #5, .T. ) ;
#204 = PLANE ( 'NONE',  #205 ) ;
#205 = AXIS2_PLACEMENT_3D ( 'NONE', #206, #207, #208 ) ;
#206 = CARTESIAN_POINT ( 'NONE',  ( 0.0000000000000000000, 0.0000000000000000000, -200.0000000000000000 ) ) ;
#207 = DIRECTION ( 'NONE',  ( -1.000000000000000000, 0.0000000000000000000, 0.0000000000000000000 ) ) ;
#208 = DIRECTION ( 'NONE',  ( 0.0000000000000000000, 0.0000000000000000000, 1.000000000000000000 ) ) ;
#209 = LINE ( 'NONE', #210, #211 ) ;
#210 = CARTESIAN_POINT ( 'NONE',  ( 510.7000000000000500, -19.65149389870002800, -200.0000000000000000 ) ) ;
#211 = VECTOR ( 'NONE', #212, 1000.000000000000000 ) ;
#212 = DIRECTION ( 'NONE',  ( 0.0000000000000000000, 1.000000000000000000, 0.0000000000000000000 ) ) ;
#213 = CARTESIAN_POINT ( 'NONE',  ( 509.1000000000000200, -13.61814050874819800, 0.0000000000000000000 ) ) ;
#214 = EDGE_CURVE ( 'NONE', #372, #27, #227, .T. ) ;
#215 = ORIENTED_EDGE ( 'NONE', *, *, #42, .F. ) ;
#216 = CARTESIAN_POINT ( 'NONE',  ( 509.1000000000000200, 19.99625694955440700, 0.0000000000000000000 ) ) ;
#217 = FACE_OUTER_BOUND ( 'NONE', #161, .T. ) ;
#218 = PLANE ( 'NONE',  #219 ) ;
#219 = AXIS2_PLACEMENT_3D ( 'NONE', #220, #221, #222 ) ;
#220 = CARTESIAN_POINT ( 'NONE',  ( 0.0000000000000000000, -19.65149389870002800, -200.0000000000000000 ) ) ;
#221 = DIRECTION ( 'NONE',  ( 0.0000000000000000000, -1.000000000000000000, 0.0000000000000000000 ) ) ;
#222 = DIRECTION ( 'NONE',  ( 0.0000000000000000000, 0.0000000000000000000, -1.000000000000000000 ) ) ;
#223 = LINE ( 'NONE', #224, #225 ) ;
#224 = CARTESIAN_POINT ( 'NONE',  ( 509.1000000000000200, -13.61814050874819800, -200.0000000000000000 ) ) ;
#225 = VECTOR ( 'NONE', #226, 1000.000000000000000 ) ;
#226 = DIRECTION ( 'NONE',  ( 0.0000000000000000000, 0.0000000000000000000, 1.000000000000000000 ) ) ;
#227 = LINE ( 'NONE', #228, #229 ) ;
#228 = CARTESIAN_POINT ( 'NONE',  ( 509.1000000000000200, 19.99625694955440700, -200.0000000000000000 ) ) ;
#229 = VECTOR ( 'NONE', #230, 1000.000000000000000 ) ;
#230 = DIRECTION ( 'NONE',  ( 0.0000000000000000000, 0.0000000000000000000, 1.000000000000000000 ) ) ;
#231 = LINE ( 'NONE', #233, #234 ) ;
#232 = ADVANCED_FACE ( 'NONE', ( #236 ), #237, .F. ) ;
#233 = CARTESIAN_POINT ( 'NONE',  ( 0.0000000000000000000, 0.0000000000000000000, -200.0000000000000000 ) ) ;
#234 = VECTOR ( 'NONE', #235, 1000.000000000000000 ) ;
#235 = DIRECTION ( 'NONE',  ( 0.0000000000000000000, -1.000000000000000000, 0.0000000000000000000 ) ) ;
#236 = FACE_OUTER_BOUND ( 'NONE', #18, .T. ) ;
#237 = PLANE ( 'NONE',  #238 ) ;
#238 = AXIS2_PLACEMENT_3D ( 'NONE', #239, #240, #241 ) ;
#239 = CARTESIAN_POINT ( 'NONE',  ( 0.0000000000000000000, 0.0000000000000000000, -200.0000000000000000 ) ) ;
#240 = DIRECTION ( 'NONE',  ( 0.0000000000000000000, 0.0000000000000000000, 1.000000000000000000 ) ) ;
#241 = DIRECTION ( 'NONE',  ( 1.000000000000000000, 0.0000000000000000000, 0.0000000000000000000 ) ) ;
#242 = CARTESIAN_POINT ( 'NONE',  ( 0.0000000000000000000, -19.65149389870002800, 0.0000000000000000000 ) ) ;
#243 = LINE ( 'NONE', #244, #245 ) ;
#244 = CARTESIAN_POINT ( 'NONE',  ( 510.7000000000000500, 19.99625694955441100, -200.0000000000000000 ) ) ;
#245 = VECTOR ( 'NONE', #246, 1000.000000000000000 ) ;
#246 = DIRECTION ( 'NONE',  ( 0.0000000000000000000, 0.0000000000000000000, 1.000000000000000000 ) ) ;
#247 = CARTESIAN_POINT ( 'NONE',  ( 510.7000000000000500, -19.65149389870002800, 0.0000000000000000000 ) ) ;
#248 = LINE ( 'NONE', #249, #250 ) ;
#249 = CARTESIAN_POINT ( 'NONE',  ( 1.599999999999999900, -13.61814050874826000, -200.0000000000000000 ) ) ;
#250 = VECTOR ( 'NONE', #251, 1000.000000000000000 ) ;
#251 = DIRECTION ( 'NONE',  ( 0.0000000000000000000, 0.0000000000000000000, 1.000000000000000000 ) ) ;
#252 = COLOUR_RGB ( '',0.9411764705882352800, 0.6745098039215686700, 0.1176470588235294100 ) ;
#253 = FILL_AREA_STYLE_COLOUR ( '', #252 ) ;
#254 = FILL_AREA_STYLE ('',( #253 ) ) ;
#255 = SURFACE_STYLE_FILL_AREA ( #254 ) ;
#256 = SURFACE_SIDE_STYLE ('',( #255 ) ) ;
#257 = SURFACE_STYLE_USAGE (.BOTH., #256 ) ;
#258 = PRESENTATION_STYLE_ASSIGNMENT (( #257 ) ) ;
#259 = STYLED_ITEM ( 'NONE', ( #258 ), #316 ) ;
#260 = FACE_OUTER_BOUND ( 'NONE', #63, .T. ) ;
#261 = PLANE ( 'NONE',  #262 ) ;
#262 = AXIS2_PLACEMENT_3D ( 'NONE', #263, #264, #269 ) ;
#263 = CARTESIAN_POINT ( 'NONE',  ( 510.7000000000000500, 19.99625694955441100, -200.0000000000000000 ) ) ;
#264 = DIRECTION ( 'NONE',  ( -2.168404344970946900E-015, 1.000000000000000000, 0.0000000000000000000 ) ) ;
#265 = ORIENTED_EDGE ( 'NONE', *, *, #64, .T. ) ;
#266 = ORIENTED_EDGE ( 'NONE', *, *, #8, .F. ) ;
#267 = VERTEX_POINT ( 'NONE', #247 ) ;
#268 = ORIENTED_EDGE ( 'NONE', *, *, #52, .F. ) ;
#269 = DIRECTION ( 'NONE',  ( -1.000000000000000000, -2.168404344970946900E-015, 0.0000000000000000000 ) ) ;
#270 = LINE ( 'NONE', #271, #272 ) ;
#271 = CARTESIAN_POINT ( 'NONE',  ( 0.0000000000000000000, 0.0000000000000000000, -200.0000000000000000 ) ) ;
#272 = VECTOR ( 'NONE', #273, 1000.000000000000000 ) ;
#273 = DIRECTION ( 'NONE',  ( 0.0000000000000000000, 0.0000000000000000000, 1.000000000000000000 ) ) ;
#274 =( LENGTH_UNIT ( ) NAMED_UNIT ( * ) SI_UNIT ( .MILLI., .METRE. ) );
#275 =( NAMED_UNIT ( * ) PLANE_ANGLE_UNIT ( ) SI_UNIT ( $, .RADIAN. ) );
#276 =( NAMED_UNIT ( * ) SI_UNIT ( $, .STERADIAN. ) SOLID_ANGLE_UNIT ( ) );
#277 = UNCERTAINTY_MEASURE_WITH_UNIT (LENGTH_MEASURE( 1.000000000000000100E-005 ), #274, 'NONE', 'NONE');
#278 =( GEOMETRIC_REPRESENTATION_CONTEXT ( 3 ) GLOBAL_UNCERTAINTY_ASSIGNED_CONTEXT ( ( #277 ) ) GLOBAL_UNIT_ASSIGNED_CONTEXT ( ( #274, #275, #276 ) ) REPRESENTATION_CONTEXT ( 'NONE', 'WORKASPACE' ) );
#279 = ADVANCED_BREP_SHAPE_REPRESENTATION ( 'test cote moi', ( #316, #280 ), #278 ) ;
#280 = AXIS2_PLACEMENT_3D ( 'NONE', #284, #285, #286 ) ;
#281 = ORIENTED_EDGE ( 'NONE', *, *, #10, .F. ) ;
#282 = EDGE_CURVE ( 'NONE', #373, #62, #248, .T. ) ;
#283 = ORIENTED_EDGE ( 'NONE', *, *, #12, .T. ) ;
#284 = CARTESIAN_POINT ( 'NONE',  ( 0.0000000000000000000, 0.0000000000000000000, 0.0000000000000000000 ) ) ;
#285 = DIRECTION ( 'NONE',  ( 0.0000000000000000000, 0.0000000000000000000, 1.000000000000000000 ) ) ;
#286 = DIRECTION ( 'NONE',  ( 1.000000000000000000, 0.0000000000000000000, 0.0000000000000000000 ) ) ;
#287 = APPLICATION_CONTEXT ( 'automotive_design' ) ;
#288 = APPLICATION_PROTOCOL_DEFINITION ( 'draft international standard', 'automotive_design', 1998, #287 ) ;
#289 = PRODUCT_CONTEXT ( 'NONE', #287, 'mechanical' ) ;
#290 = PRODUCT ( 'test cote moi', 'test cote moi', '', ( #289 ) ) ;
#291 = PERSON ( 'UNSPECIFIED', 'UNSPECIFIED', 'UNSPECIFIED', ('UNSPECIFIED'), ('UNSPECIFIED'), ('UNSPECIFIED') ) ;
#292 = ORGANIZATION ( 'UNSPECIFIED', 'UNSPECIFIED', '' ) ;
#293 = PERSON_AND_ORGANIZATION ( #291, #292 ) ;
#294 = PERSON_AND_ORGANIZATION_ROLE ( 'design_owner' ) ;
#295 = APPLIED_PERSON_AND_ORGANIZATION_ASSIGNMENT ( #293, #294, ( #290 ) ) ;
#296 = APPLICATION_CONTEXT ( 'automotive_design' ) ;
#297 = APPLICATION_PROTOCOL_DEFINITION ( 'draft international standard', 'automotive_design', 1998, #296 ) ;
#298 = PRODUCT_DEFINITION_CONTEXT ( 'detailed design', #296, 'design' ) ;
#299 = PRODUCT_DEFINITION ( 'UNKNOWN', '', #331, #298 ) ;
#300 = PERSON_AND_ORGANIZATION ( #291, #292 ) ;
#301 = APPROVAL_STATUS ( 'not_yet_approved' ) ;
#302 = APPROVAL ( #301, 'UNSPECIFIED' ) ;
#303 = APPROVAL_ROLE ( '' ) ;
#304 = APPROVAL_PERSON_ORGANIZATION ( #300, #302, #303 ) ;
#305 = COORDINATED_UNIVERSAL_TIME_OFFSET ( 1, 0, .AHEAD. ) ;
#306 = LOCAL_TIME ( 22, 4, 23.00000000000000000, #305 ) ;
#307 = CALENDAR_DATE ( 2012, 2, 4 ) ;
#308 = DATE_AND_TIME ( #307, #306 ) ;
#309 = APPROVAL_DATE_TIME ( #308, #302 ) ;
#310 = APPLIED_APPROVAL_ASSIGNMENT ( #302, ( #299 ) ) ;
#311 = PERSON_AND_ORGANIZATION ( #291, #292 ) ;
#312 = PERSON_AND_ORGANIZATION_ROLE ( 'creator' ) ;
#313 = APPLIED_PERSON_AND_ORGANIZATION_ASSIGNMENT ( #311, #312, ( #299 ) ) ;
#314 = COORDINATED_UNIVERSAL_TIME_OFFSET ( 1, 0, .AHEAD. ) ;
#315 = LOCAL_TIME ( 22, 4, 23.00000000000000000, #314 ) ;
#316 = MANIFOLD_SOLID_BREP ( 'NONE', #125 ) ;
#317 = CALENDAR_DATE ( 2012, 2, 4 ) ;
#318 = DATE_AND_TIME ( #317, #315 ) ;
#319 = DATE_TIME_ROLE ( 'creation_date' ) ;
#320 = APPLIED_DATE_AND_TIME_ASSIGNMENT ( #318, #319, ( #299 ) ) ;
#321 = PERSON_AND_ORGANIZATION ( #291, #292 ) ;
#322 = APPROVAL_STATUS ( 'not_yet_approved' ) ;
#323 = APPROVAL ( #322, 'UNSPECIFIED' ) ;
#324 = APPROVAL_ROLE ( '' ) ;
#325 = APPROVAL_PERSON_ORGANIZATION ( #321, #323, #324 ) ;
#326 = COORDINATED_UNIVERSAL_TIME_OFFSET ( 1, 0, .AHEAD. ) ;
#327 = LOCAL_TIME ( 22, 4, 23.00000000000000000, #326 ) ;
#328 = CALENDAR_DATE ( 2012, 2, 4 ) ;
#329 = DATE_AND_TIME ( #328, #327 ) ;
#330 = APPROVAL_DATE_TIME ( #329, #323 ) ;
#331 = PRODUCT_DEFINITION_FORMATION_WITH_SPECIFIED_SOURCE ( 'ANY', '', #290, .NOT_KNOWN. ) ;
#332 = APPLIED_APPROVAL_ASSIGNMENT ( #323, ( #331 ) ) ;
#333 = ADVANCED_FACE ( 'NONE', ( #260 ), #261, .T. ) ;
#334 = EDGE_CURVE ( 'NONE', #371, #7, #270, .T. ) ;
#335 = ORIENTED_EDGE ( 'NONE', *, *, #15, .T. ) ;
#336 = PERSON_AND_ORGANIZATION ( #291, #292 ) ;
#337 = PERSON_AND_ORGANIZATION_ROLE ( 'creator' ) ;
#338 = APPLIED_PERSON_AND_ORGANIZATION_ASSIGNMENT ( #336, #337, ( #331 ) ) ;
#339 = PERSON_AND_ORGANIZATION ( #291, #292 ) ;
#340 = PERSON_AND_ORGANIZATION_ROLE ( 'design_supplier' ) ;
#341 = APPLIED_PERSON_AND_ORGANIZATION_ASSIGNMENT ( #339, #340, ( #331 ) ) ;
#342 = SECURITY_CLASSIFICATION_LEVEL ( 'unclassified' ) ;
#343 = SECURITY_CLASSIFICATION ( '', '', #342 ) ;
#344 = PERSON_AND_ORGANIZATION ( #291, #292 ) ;
#345 = PERSON_AND_ORGANIZATION_ROLE ( 'classification_officer' ) ;
#346 = APPLIED_PERSON_AND_ORGANIZATION_ASSIGNMENT ( #344, #345, ( #343 ) ) ;
#347 = COORDINATED_UNIVERSAL_TIME_OFFSET ( 1, 0, .AHEAD. ) ;
#348 = LOCAL_TIME ( 22, 4, 23.00000000000000000, #347 ) ;
#349 = CALENDAR_DATE ( 2012, 2, 4 ) ;
#350 = DATE_AND_TIME ( #349, #348 ) ;
#351 = DATE_TIME_ROLE ( 'classification_date' ) ;
#352 = APPLIED_DATE_AND_TIME_ASSIGNMENT ( #350, #351, ( #343 ) ) ;
#353 = PERSON_AND_ORGANIZATION ( #291, #292 ) ;
#354 = APPROVAL_STATUS ( 'not_yet_approved' ) ;
#355 = APPROVAL ( #354, 'UNSPECIFIED' ) ;
#356 = APPROVAL_ROLE ( '' ) ;
#357 = APPROVAL_PERSON_ORGANIZATION ( #353, #355, #356 ) ;
#358 = COORDINATED_UNIVERSAL_TIME_OFFSET ( 1, 0, .AHEAD. ) ;
#359 = LOCAL_TIME ( 22, 4, 23.00000000000000000, #358 ) ;
#360 = CALENDAR_DATE ( 2012, 2, 4 ) ;
#361 = DATE_AND_TIME ( #360, #359 ) ;
#362 = APPROVAL_DATE_TIME ( #361, #355 ) ;
#363 = APPLIED_APPROVAL_ASSIGNMENT ( #355, ( #343 ) ) ;
#364 = APPLIED_SECURITY_CLASSIFICATION_ASSIGNMENT ( #343, ( #331 ) ) ;
#365 = PRODUCT_RELATED_PRODUCT_CATEGORY ( 'detail', '', ( #290 ) ) ;
#366 = PRODUCT_DEFINITION_SHAPE ( 'NONE', 'NONE',  #299 ) ;
#367 = SHAPE_DEFINITION_REPRESENTATION ( #366, #279 ) ;
#368 = VERTEX_POINT ( 'NONE', #81 ) ;
#369 = EDGE_CURVE ( 'NONE', #41, #7, #98, .T. ) ;
#370 = EDGE_LOOP ( 'NONE', ( #20, #69, #21, #73 ) ) ;
#371 = VERTEX_POINT ( 'NONE', #102 ) ;
#372 = VERTEX_POINT ( 'NONE', #114 ) ;
#373 = VERTEX_POINT ( 'NONE', #120 ) ;
#374 = ORIENTED_EDGE ( 'NONE', *, *, #6, .F. ) ;
#375 = ORIENTED_EDGE ( 'NONE', *, *, #32, .T. ) ;
#376 = ORIENTED_EDGE ( 'NONE', *, *, #29, .F. ) ;
#377 = ORIENTED_EDGE ( 'NONE', *, *, #162, .F. ) ;
ENDSEC;
END-ISO-10303-21;
